Arctic Monkeys - Balaclava (var.7) Gitarrennoten kostenlos herutnerladen oder online abspielen

Gitarrennoten für Balaclava (var.7) von Arctic Monkeys kostenlos herutnerladen oder online abspielen: Datei .txt, 4.73 kb hat 334 Aufrufe und 0 Downloads.

Download gitarrennoten "Balaclava (var.7)" (Arctic Monkeys)

Arctic Monkeys Bandname
Balaclava Songname
Gitarrennoten Registerkarten-Typ
4.73 kb Dateigröße
.TXT Dateityp
334 Aufrufe
0 Downloads
 
Bist du ein Roboter?

Balaclava (var.7) gitarrennoten lesen onder online abpsielen

                    -------------------------------------------------------------------------------
			   Balaclava – Arctic monkeys
-------------------------------------------------------------------------------
Tabbed by: Howard Liley
Email: howie_liley@hotmail.co.uk

Tuning: standard

Verse guitar 1

e|---------------------------------------------------------------------------|
B|---------------------------------------------------------------------------|
G|----------11----12-14------------------------------------------------------|
D|----12-14-----11-----------------------------------------------------------|
A|-14---------12-------------------------------------------------------------|
E|---------------------------------------------------------------------------|

Verse guitar 2

e|---------------------------------------------------------------------------|
B|---------------------------------------------------------------------------|
G|---------------------------------------------------------------------------|
D|-------------5-7-----------------------------------------------------------|
A|---5-7-9---4---------------------------------------------------------------|
E|-7-------5-----------------------------------------------------------------|

Bridge guitar 1

e|---------------------------------------------------------------------------|
B|---------------------------------------------------------------------------|
G|---------11---------------------------------11-----------------------------|
D|-9--9-9--11-12---7-9-7-9-4-4-5-7-9---9--9-9-11-12—12b--7-9-7-9-4-4---------|
A|-9--9-9--9--12---7-9-7-9-4-4-5-7-9---9--9-9-9--12------7-9-7-9-4-4---------|
E|-7--7-7-----10---5-7-5-7-2-2-3-5-7---7--7-7----10------5-7-5-7-2-2---------|

e|---------------------------------------------------------------------------|
B|---------------------------------------------------------------------------|
G|--------11-----------------------------------------------------------------|
D|-9--9-9-11-12------7-9-7-9-4-4---------------------------------------------|
A|-9--9-9-9--12-14b--7-9-7-9-4-4----------------------------------------------|
E|-7--7-7----10------5-7-5-7-2-2---------------------------------------------|

Bridge guitar 2

e|---------------------------------------------------------------------------|
B|---------------------------------------------------------------------------|
G|-----------11--------------------------------------------------------------|
D|--------------12-----------------------------------------------------------|
A|-14--14-14----------12-14-12-14--9-9-10-12---------------------------------|
E|---------------------------------------------------------------------------|

e|---------------------------------------------------------------------------|
B|---------------------------------------------------------------------------|
G|----------11---------------------------------------------------------------|
D|------------12-------------------------------------------------------------|
A|-14--14-14----------12-14-12-14--9-9-10-12---------------------------------|
E|---------------------------------------------------------------------------|






Guitar 1 fast bit

e|---------------------------------------------------------------------------|
B|---------------------------------------------------------------------------|
G|-------------------11-11----------12-12-14-14------------------------------|
D|-------12-12-14-14-----------11-11-----------------------------------------|
A|-14-14------------------12-12----------------------------------------------|
E|---------------------------------------------------------------------------|

e|---------------------------------------------------------------------------|
B|---------------------------------------------------------------------------|
G|-------------------11-11---------------------------------------------------|
D|-------12-12-14-14------------11-11----------------------------------------|
A|-14-14------------------12-12-------9-9-10-10------------------------------|
E|---------------------------------------------------------------------------|


Guitar 2 fast bit

e|---------------------------------------------------------------------------|
B|---------------------------------------------------------------------------|
G|---------------------------------------------------------------------------|
D|------------------------5-5-7-7--------------------------------------------|
A|-----5-5-7-7-9-9----4-4-------------5-5-7-7-9-9----4-4---------------------|
E|-7-7-------------5-5-------------7-7------------5-5----2-2-3-3-------------|





| /  slide up
| \  slide down
| h  hammer-on
| p  pull-off
| ~  vibrato
| +  harmonic
| x  Mute note
===============================================================================                    

Kommentare für gitarrennoten — Balaclava (var.7) (Arctic Monkeys)

Andere Balaclava (var.7) von Arctic Monkeys Registerkarten:

Zuletzt angesehene Arctic Monkeys Registerkarten: