Arctic Monkeys - Bet That You Look Good On The Dancefloor Bass Noten kostenlos herutnerladen oder online abspielen

Bass Noten für Bet That You Look Good On The Dancefloor von Arctic Monkeys kostenlos herutnerladen oder online abspielen: Datei .txt, 3.34 kb hat 312 Aufrufe und 0 Downloads.

Download bass noten "Bet That You Look Good On The Dancefloor" (Arctic Monkeys)

Arctic Monkeys Bandname
Bet That You Look Good On The Dancefloor Songname
Bass Noten Registerkarten-Typ
3.34 kb Dateigröße
.TXT Dateityp
312 Aufrufe
0 Downloads
 
Bist du ein Roboter?

Bet That You Look Good On The Dancefloor bass noten lesen onder online abpsielen

                    Arctic Monkeys - Bet That you look good on the dance floor
Please rate and leave comments
any corrections email aidanfox@hotmail.com
Enjoy

Intro:
G|-----------------------------------------|----------------------------------|
D|-----------------------------------------|----------------------------------|
A|-----------------------------------------|----------------------------------|
E|--2--02--02--02--022--022--0222--0222----|-22222222222222222222222222222222-|

Verse:
G|-------------|
D|-------------|
A|--4-22-000---|X11
E|-----------2-|
Last time
G|-------------|
D|-------------|
A|-4-22-000----|X1
E|----------0--|

Chorus:
G|----------------------------------------------------------|------------------|
D|-------2---------2----------2---------2--------2-------2--|-------2-44444----|
A|-----4---4-----4---4--0-0-4---4--0-0-4--4----4---4----4--4|-----4---------40-|
E|-2-2-------2-2----------------------------0-0------0-0----|-2-2--------------|

G|----------------------------------------------------------|------------------|
D|-------2---------2----------2---------2--------2-------2--|------------------|
A|-----4---4-----4---4--0-0-4---4--0-0-4--4----4---4----4--4|--444444444444444-|
E|-2-2-------2-2----------------------------0-0------0-0----|------------------|

Verse:
G|-------------|
D|-------------|
A|--4-22-000---|X11
E|-----------2-|
Last time
G|-------------|
D|-------------|
A|-4-22-000----|X1
E|----------0--|

Chorus:
G|-------------------------------------------------------|------------------|
D|-----2--------2---------2---------2--------2-------2---|-------2-44444----|
A|---4---4----4---4--0-0-4---4--0-0-4--4----4---4----4--4|-----4---------40-|
E|2-2------2-2---------------------------0-0------0-0----|-2-2--------------|

G|----------------------------------------------------------|------------------|
D|-------2---------2----------2---------2--------2-------2--|------------------|
A|-----4---4-----4---4--0-0-4---4--0-0-4--4----4---4----4--4|--444444444444444-|
E|-2-2-------2-2----------------------------0-0------0-0----|------------------|

Bridge:
G|------------------------------------------------------------|
D|----------------2-22-22-22-222-4-44-44-44-444-44444444444444|
A|-0-00-00-00-000---------------------------------------------|
E|------------------------------------------------------------|

G|-------------------------------|---------------------------------------------------|
D|----------------2-22-22-22-222-|---------------------------------------------------|
A|-0-00-00-00-000----------------|---------------------------------------------------|
E|-------------------------------|-2-2-2-2-2-2-2-2-22222222222222222222222222222/14\2|

Chorus:
G|-----------------------------------------|------------------|
D|-------2--------2----------2---------2---|-------2-44444----|
A|-----4---4----4---4--0-0-4---4--0-0-4--4-|-----4---------40-|
E|-2-2------2-2----------------------------|-2-2--------------|

G|----------------------------------------------------------|------------------|
D|-------2---------2----------2---------2--------2-------2--|------------------|
A|-----4---4-----4---4--0-0-4---4--0-0-4--4----4---4----4--4|--444444444444444-|
E|-2-2-------2-2----------------------------0-0------0-0----|------------------|

End On:
G|------|
D|------|
A|------|
E|--2---|                    

Kommentare für bass noten — Bet That You Look Good On The Dancefloor (Arctic Monkeys)

Andere Bet That You Look Good On The Dancefloor von Arctic Monkeys Registerkarten:

Zuletzt angesehene Arctic Monkeys Registerkarten: