Arctic Monkeys - Brian Storm (var.8) Bass Noten kostenlos herutnerladen oder online abspielen

Bass Noten für Brian Storm (var.8) von Arctic Monkeys kostenlos herutnerladen oder online abspielen: Datei .txt, 3.12 kb hat 274 Aufrufe und 0 Downloads.

Download bass noten "Brian Storm (var.8)" (Arctic Monkeys)

Arctic Monkeys Bandname
Brian Storm Songname
Bass Noten Registerkarten-Typ
3.12 kb Dateigröße
.TXT Dateityp
274 Aufrufe
0 Downloads
 
Bist du ein Roboter?

Brian Storm (var.8) bass noten lesen onder online abpsielen

                    Great song by a great band
I think this is right... check it 4 me

-------------------------------------------------------------------------------
			     BRIANSTORM - Arctic Monkeys
-------------------------------------------------------------------------------

Tabbed By :   andy_on_bass 
e-mail:  andy4bolton@hotmail.com

Tuning: Normal

G|-1-1-1-1-1-1-1-1-1-1-1-1-1-1-1--(continue till next part)----------------|
D|-------------------------------------------------------------------------|
A|-------------------------------------------------------------------------|
E|-------------------------------------------------------------------------|

G|------------------0------------------0-----------------------------------|
D|-3-----------1-2----3-----------1-2----(x2 pause then start again x5)----|
A|----4-3--4-4-----------4-3--4-4------------------------------------------|
E|-------------------------------------------------------------------------|
   Then anouther pause for x2 then come back in with x5 then...

G|-------------------------------------------------------------------------|
D|-------------------------------------------------------------------------|
A|--3-------3-3-----4-3-------3-3------4-3-----3-3-----3-7-(16 7's)--------|
E|-----4-1------4-1------4-1------4-1------3-1-----4-1---------------------|

G|-----------------6-6-5-5-----6-6-5---------------------------------------|
D|---3-3-3-3-3-6-6---------6-6---------------------------------------------|
A|-------------------------------------------------------------------------|
E|-------------------------------------------------------------------------|

G|-------------------------------------------------------------------------|
D|-------------------------------------------------------------------------|
A|-----------------4-4-3-3-----4-4-3---------------------------------------|
E|---1-1-1-1-1-4-4---------4-4---------------------------------------------|

G|-----------------6-6-5-5-----6-6-5---------------------------------------|
D|---3-3-3-3-3-6-6---------6-6---------------------------------------------|
A|-------------------------------------------------------------------------|
E|-------------------------------------------------------------------------|

G|-------------------------------------------------------------------------|
D|-------------------------------------------------------------------------|
A|-----------------4-4-3-3-----4-4-3----(continue this part for x5)--------|
E|---1-1-1-1-1-4-4---------4-4---------------------------------------------|
pause
G|------------------0------------------0-----------------------------------|
D|-3-----------1-2----3-----------1-2--------(x2)--------------------------|
A|----4-3--4-4-----------4-3--4-4------------------------------------------|
E|-------------------------------------------------------------------------|

G|-------------------------------------------------------------------------|
D|-------------------------------------------------------------------------|
A|-------------------------------------------------------------------------|
E|--1-1-1-1-1-1-1-1-1-1-1-1-1-1-1-1-1-1-1-1-1-1-1-1-1 (till end)-----------|                    

Kommentare für bass noten — Brian Storm (var.8) (Arctic Monkeys)

Andere Brian Storm (var.8) von Arctic Monkeys Registerkarten:

Zuletzt angesehene Arctic Monkeys Registerkarten: