Arctic Monkeys - Brian Storm (var.7) Gitarrennoten kostenlos herutnerladen oder online abspielen

Gitarrennoten für Brian Storm (var.7) von Arctic Monkeys kostenlos herutnerladen oder online abspielen: Datei .txt, 4.21 kb hat 301 Aufrufe und 0 Downloads.

Download gitarrennoten "Brian Storm (var.7)" (Arctic Monkeys)

Arctic Monkeys Bandname
Brian Storm Songname
Gitarrennoten Registerkarten-Typ
4.21 kb Dateigröße
.TXT Dateityp
301 Aufrufe
0 Downloads
 
Bist du ein Roboter?

Brian Storm (var.7) gitarrennoten lesen onder online abpsielen

                    Brian Storm Tab by Arctic Monkeys, 


-------------------------------------------------------------------------------
			     Brian Storm ВЎV Arctic Monkeys
-------------------------------------------------------------------------------
Tabbed by:jonesytab13
Email:jonesy1303@hotmail.com

Tuning:
Intro Guitar1
e|------------------------------------------------------------------|
B|------------------------------------------------------------------|
G|-1010101010101010101010101010101010-------------------------------|
D|-1010101010101010101010101010101010-----x16-----------------------|
A|-8-8-8-8-8-8-8-8-8-8-8-8-8-8-8-8-8--------------------------------|
E|------------------------------------------------------------------|

After 8 bars of guitar one Guitar 2 plays
e|------------------------------------------------------------------|
B|------------------------------------------------------------------|
G|------------------------------------------------------------------|
D|--333333-3-333333-3-333333-3-333333-3-----x2----------------------|
A|--------4--------4--------4--------4------------------------------|
E|------------------------------------------------------------------|

Fill:
e|------------|
B|------------|
G|------------|    This carries on when the verse comes in
D|-3----------|     it follows the chords-nice n easy Ж’Вє
A|--43-44-67--|
E|------------|

Verse:
e|------------------------------------------------------------------|
B|------------------------------------------------------------------|
G|--10--6-5--6-6-8/9------------------------------------------------|
D|--10--6-5--6-6-8/9-----x4-----------------------------------------|
A|--8---4-3--4-4-6/7------------------------------------------------|
E|------------------------------------------------------------------|

ВЎВ§BrianВЎВЁ (then just this in the background behind the vocals)
e|------------|
B|------------|
G|------------|
D|-3----------|
A|--43-44-67--| x8
E|------------|

(Tremelo picking and muting)
e|------------------------------------------------------------------|
B|------------------------------------------------------------------|
G|------------------------------------------------------------------|
D|3333-----------3333----------3333----------3333-------------------|
A|----43-4444-67-----43-4444-67----43-4444-67----43-4444-ВЎВ§some want-|
E|--------------------------------------------------------to kissВЎВЁ--|

Guitar 2: Scratching

Verse:
e|------------|
B|------------|
G|------------|
D|-3----------|
A|--43-44-67--| x8
E|------------|

ВЎВ§for a whileВЎВЁ
e|------------------------------------------------------------------|
B|------------------------------------------------------------------|
G|------------------------------------------------------------------|
D|------------------------------------------------------------------|
A|--3----4-33--4-3--4--33---4----x2---------------------------------|
E|----43-----43---43------43----------------------------------------|

                        C5   E5   C5   E5
e|------------------------------------------------------------------|
B|------------------------------------------------------------------|
G|------------------------------xxxx-x-x-xxxx-x-x-------------------|
D|------------33----------3-----xxxx-x-x-xxxx-x-x--------x2---------|
A|--333333-44----44-33-33---4---3333-7-7-3333-7-7-------------------|
E|------------------------------------------------------------------|

Ending:

e|------------------------------------------------------------------|
B|------------------------------------------------------------------|
G|-1010101010101010101010101010101010-------------------------------|
D|-1010101010101010101010101010101010-----x16-----------------------|
A|-8-8-8-8-8-8-8-8-8-8-8-8-8-8-8-8-8--------------------------------|
E|------------------------------------------------------------------|


Its not my best tab ever, but I plan to correct it, and probably add more of the lead 
when I get a decent copy of the track, this was done with bootlegs of hype machine, cant 
for the album, donВЎВ¦t hesitate to correct me, ENJOY!

| /  slide up
| \  slide down
| h  hammer-on
| p  pull-off
| ~  vibrato
| +  harmonic
| x  Mute note
===============================================================================                    

Kommentare für gitarrennoten — Brian Storm (var.7) (Arctic Monkeys)

Andere Brian Storm (var.7) von Arctic Monkeys Registerkarten:

Zuletzt angesehene Arctic Monkeys Registerkarten: