Arctic Monkeys - Brian Storm (var.9) Bass Noten kostenlos herutnerladen oder online abspielen

Bass Noten für Brian Storm (var.9) von Arctic Monkeys kostenlos herutnerladen oder online abspielen: Datei .txt, 2.09 kb hat 302 Aufrufe und 0 Downloads.

Download bass noten "Brian Storm (var.9)" (Arctic Monkeys)

Arctic Monkeys Bandname
Brian Storm Songname
Bass Noten Registerkarten-Typ
2.09 kb Dateigröße
.TXT Dateityp
302 Aufrufe
0 Downloads
 
Bist du ein Roboter?

Brian Storm (var.9) bass noten lesen onder online abpsielen

                    Brian Storm Bass Tab by Arctic Monkeys, 


-----------------------------------------------------------------------------
			     Brianstorm - Arctic Monkeys
-----------------------------------------------------------------------------

Tabbed By : Duffboyyuk
e-mail: Duffboyyuk@hotmail.com

Tuning: Standard (EADG)

Intro/Outro x6 (NOte: Its Not 11, But 1-1 really quickly)
G|-----------------------------------------------|
D|-----------------------------------------------|
A|-----------------------------------------------|
E|-1-1111-1-1111-1-1111-1-1111-1-1111------------|

Verse
G|-----------------------------------------------|
D|-3--------------2--5---3--------------1-2-5----|
A|----4-3--4-4--4-----------4-3--4-4--4----------|
E|-----------------------------------------------|

Pre-Chorus
G|-----------------------------------------------|
D|-----------------------------------------------|
A|-3-------3-3------4---3-------3-3-------4------|
E|----4-1------1-4---------4-1------1-4----------|

Before Bridge
G|-----------------------------------------------|
D|-----------------------------------------------|
A|-----------------------------------------------|
E|-0-0-0-0---------------------------------------|


Bridge (Because Of The Distortion I Am Not Sure Which Octave This Is Played On, But I 
Its Played High On Its Own And Low When The Guitars Come In, So I Have Tabbed Both!)
"Bass Break"
G|---------------6-5-------6-5-------------------|
D|-3-3-3-3-3-6-6-----5---6-----6-(5)-------------|
A|---------------------8-------------------------|
E|-----------------------------------------------|

Guitars In
G|-----------------------------------------------|
D|-----------------------------------------------|
A|---------------4-3-------4-3-------------------|
E|-1-1-1-1-1-4-4-----3-1-4-----4-(3)-------------|

Order
Intro
Verse
Pre-Chorus
Verse
Before Bridge
Bass Break/Interlude
Verse
Intro

| /  slide up
| \  slide down
| h  hammer-on
| p  pull-off
| ~  vibrato
| +  harmonic
| x  Mute note

Comments, Complanits Or Queries, Just E-Mail Me!!
=============================================================================                    

Kommentare für bass noten — Brian Storm (var.9) (Arctic Monkeys)

Andere Brian Storm (var.9) von Arctic Monkeys Registerkarten:

Zuletzt angesehene Arctic Monkeys Registerkarten: